Make your own free website on Tripod.com
#----------------------------------PLEASE NOTE---------------------------------#
#This file is the author's own work and represents their interpretation of the #
#song. You may only use this file for private study, scholarship, or research. #
#------------------------------------------------------------------------------#
Believer
Ozzy Osbourne/Randy Rhoads
Diary of A Madman
|------------------------------------------------------------------
|-----------------5----------------------------7--8----------------
|--------------2-------------------------------6--7-----------7\---
|-----5-4~~---(4)----2---5-4~~-------4---------4--5-------x-x-7\---
|---2------------------2---------5/6----2-----------------x-x-5\---
|-0-------------------------------------0-----------------x-x------

 

|-----------------------------0----------------------------0-------
|------------------------------------------------------------------
|---------------------------2-------------------4------7-----------
|-----------------4h5p4p2-4---------------------4------7-----------
|-----------------------------------------------2------5-----------
|-x-x-x-x-x-x-x-x---------------x-x-x-x-x-x-x-x--------------------

 

|-----------------------------0-----------------12----12~~~~~~~----
|-------------------------------------------8------------11~~~~----
|---------------------------2---------------9----------------------
|-----------------4h5p4p2-4----------------------------------------
|------------------------------------------------------------------
|-x-x-x-x-x-x-x-x---------------x-x-x-x-x-x-x-x--------------------

 

"youve got to believe in yourself..."
|------------------------------------------------------------------
|------------------------------------------------------------------
|11-----------x-7----------x-4-------------------------------------
|11-----------x-7----------x-4---------wah-------------------------
|-9-----------x-5----------x-2-----------------12*-----------------
|--------------------------------------0h------dive----------------

 

"I cant belive they stop and stare..."            1st time:
|---------0---------------0---------------0-------|---0--------------
|---1---1---1---1-----1-----1---1-----1-----1---1-|-------3-1---0-3--
|-----4-------4-----4---4-----4-----2---2-----2---|-----4-----1------
|-2---------------3---------------4---------------|------------------
|-0---------------0-------------------------------|------------------
|-------------------------------------------------|-0----------------
2nd time:         ***1st and 3rd time***
|---------0-------|---------------------------------|-12---------12--------
|-----3-----3---3-|---------------------------------|----12-11~~----12-11~~
|---4---4-----4---|-3-------3-------3---------------|----------------------
|-----------------|-3-------3-------3---------------|----------------------
|-----------------|-1---x-x-1---x-x-1---x-x-1-0-----|----------------------
|-4---------------|-----------------------------3-2-|----------------------
3rd Time:
|------------------------------12---------12---------
|---------------------------------12-11~~----12-11~~-
|-5------5------5------------------------------------
|-5------5------5------------------------------------
|-3--x-x-3--x-x-3--x-x-3-0---------------------------
|--------------------------3-2-----------------------
4th
|---------------------------------
|--------8------8-----------------
|--------9------9------------5----
|-7------7------7------------5----
|-7------7------7-----0-2--0-3----
|-5--x-x-5--x-x-5-----------------

 

Solo:
|------12-------------12--------------12--------------12-----------
|---------15-12----------15-12------12--15-12-------12---15-12-----
|-14^-----------14^------------14^------------14^------------------
|------------------------------------------------------------------
|------------------------------------------------------------------
|------------------------------------------------------------------

 

|-15p12----12---------------------------------------------------------------
|-------15----15-12-15p12----12---------------------------------------------
|-------------------------14----14-12-14p12----12----------------12-12-14---
|-------------------------------------------14----14-12-14p12-14------------
|---------------------------------------------------------------------------
|---------------------------------------------------------------------------

 

|----------------------------12-15-14-12-17-15-14-18-17-15-19-17-15-
|-------------15----15----15----------------------------------------
|-14-12-14/16----16----16-------------------------------------------
|-------------------------------------------------------------------
|-------------------------------------------------------------------
|-------------------------------------------------------------------

 

|-20-19-17-22-20-19-19h20p19h20p19h20p19----19---------------------
|----------------------------------------22----22-20---------------
|----------------------------------------------------21^---^^------
|------------------------------------------------------------------
|------------------------------------------------------------------
|------------------------------------------------------------------

 

|-15p12----15p12-14p12----12---------------15p12-14p12-------15----
|-------14-------------14----%------%------------------14/17-------
|------------------------------------------------------------------
|------------------------------------------------------------------
|------------------------------------------------------------------
|------------------------------------------------------------------

 

|-19p15----19p15-----------------------18p15------15---18~~~~~~----
|-------17-------17--%-----%------%----------17--------------------
|----------------------------------------------hold note-----------
|------------------------------------------------------------------
|------------------------------------------------------------------
|------------------------------------------------------------------

 

|-18p15h18p15----15-18p15---------21~~~~~~~~~~---------------------
|-------------17----------17/20~~~~~~~~~~~~~~~---------------------
|------------------------------------------------------------------
|------------------------------------------------------------------
|------------------------------------------------------------------
|----------------------------------------------20\-----------------

 

|--------------------------------------------7h8h10p8p7-8p7----7---
|-------------------------------------7h8h10----------------10---10
|-------------------------4h5h7-5h7h9------------------------------
|-------------------4h5h7------------------------------------------
|-------2h3h5-3h5h7------------------------------------------------
|-2h3h5------------------------------------------------------------

 

|------------------------------------------------------------------
|-8-7\5h7p5--------------------------------------------------------
|-----------7--5\4-----4h5p4----------------0|---------------------
|-------------------7--------7--5--4-----4----\dive----------------
|-------------------------------------7--------\-------------------
|------------------------------------------------------------------