Make your own free website on Tripod.com
#----------------------------------PLEASE NOTE---------------------------------#
#This file is the author's own work and represents their interpretation of the #
#song. You may only use this file for private study, scholarship, or research. #
#------------------------------------------------------------------------------##
#
[two versions]
From: peford@rodan.acs.syr.edu (Patricia E. Ford)
"DEE" by Randy Rhoads     
Transcribed by BLUESMAN
 
   Dee is a a somewhat fast paced song, so I doubt that this transcription
   will suffice without listening to the tape. It really is a basic song
   compared with most classical songs. But Randy has added in a few tricks
   here and there to make it sound difficult. Please forgive my non-standard
   format. Bascially, when notes are bunched together such as right after
   the first harmonic, you would fingerpick them rather quickly. I tried
   to vaguely capture the timing of the song by spacing the notes this
   way.
 
                  harmonic                  slide
1-------------------x7x---7---7---10---10--------------12-11-12----------------
2---12-----12--10---x7x-----7--7-----8---8-----------10------------------------
3---------12--------x7x----7-7------7-7------------9---------------------------
4--------12----9----x7x---9-------9----------9->11-----------------------------
5---10--10---------------------------------------------------------------------
6------------------------------------------------------------------------------
 
1-------------------3---3---2----------0---0-----0--------------0--------------
2---12-----12--10-----2---------5--3-----0---------3-2-3--3---3--3-------------
3---------12-------------------------------------------------2-2---------------
4--------12---------2-------0-------------------------------0------------------
5---10--10-----9----------------4--2-------------0-----------------------------
6--------------------------------------3------------------2--------------------
 
   trill pulloff                                                 harmonic
1---5=7=5<-0-----2---2------0---2---3---------3-2--2--0--0---------x12x--------
2---7---------------0-0------------------0--------------3----2--3--x12x--------
3------------------2--------------------0-0------------------------x12x--------
4----------------1---------------------2---2-----------------------x12x--------
5-----------------------2------------------------------------0-----------------
6---------------------------3---2---0--------------4---------------------------
 
    <--- hammers  --->             trill                      trill       slide
1----------------------------2--3--5=7=5-------0-----2--3--5--7=9=7------------
2----------------------------3-------------3--3------3----------------2----3>>5
3---4=2=0------------------------------------0--------------------------0------
4----------4=2=0---------0>>>>--------------------0>>>>>>----------------------
5----------------4=2=0---------------------2--------------------------0--------
6------------------------------------------------------------------------------
      po        po   po  po             po   slide             slide
1---5-->--3-3-2-2>0--2>0-----0-------0-----------------------------------------
2------------------------3>0--------3---2>0--3>5---2---------------------------
3----------------------------------------------------0--3-3--2-----------------
4---0>>>>>>>>>-------4>>>>>>>---------------------------------0----------------
5-----------------------------------2---0----------0-------------2>0-----------
6---------------------------------------------------------2--------------------
 
     slide      slide   harmonic
1---7-->--5---5-->--3----x7x---------------------------------------------------
2---8--------------------x7x---------------------------------------------------
3------------------------x7x---------------------------------------------------
4------------------------x7x---------------------------------------------------
5-------------4----------------------------------------------------------------
6---0->>>>>--------------------------------------------------------------------
 
 
 
From: gorby@magi.com
Date: Thu, 29 Jun 1995 01:45:37 GMT
"Dee" Written & preformed by Randy Rhodes
From the album "Blizzard of Oz" by Ozzy Ozbourne
Transcribed by GORBY!!

This is an excellent classical piece!  It is a great song to learn for practicing your
finger-picking.  Randy was a geneous when it came to writing music-too bad he's gone.
I'm not much of a classical player so some of the parts may be a little off, but, it
sounds pretty good to me compared to the album!  It took me quite a while to transcribe this
so any changes or feedback is welcome.  Enjoy!

         H          HARMONICS
e:7-----3--5--7--5----7------|
B:---3----------------7------|
G:--------------------7------|
D:5--------------0----7------|
A:---------------------------|
E:---------------------------|



e:-7-----------7-----10----------10-----------------12---12-|
B:-------7--------7--------8---------8----------10----10----|
G:----7-----7-----------7-----7--------------9--------------|
D:-9-----------------9------------------9/11----------------|
A:----------------------------------------------------------|
E:----------------------------------------------------------|



e:7-----H--7------------------------0---0---P---------------0-------|
B:-----7-8----10------8---8--7-5-3----0----5-3---3------3-----3-----|
G:---7------------------6----------------------6----------2-----2---|
D:-----------------------------------------------4----4-----------4-|
A:10----------9-------7------5-4-2---------0------------------------|
E:----------------------------------3-------------------------------|


   H P P                                        P   P   P   P               H
e:5-7-5-3---2-----2--2-----2--------0--2-3---3-3-2-2-0-2-0-2-0--0-----------12---|
B:--------------0--------0-----------------0-------------------3--2---2-3/9-12---|
G:------------2--------2--------------------------------------------0-------12---|
D:0---------1----------------------------------0----------------------------12---|
A:-------------------2--------------------------------------------0--------------|
E:----------------------------------3--2-0-----------------4---------------------|


                                      H P                      H P
E :-----------------------------1-3-5-5-7-5--------0-----3-5-7-7-9-7---------0|
B:-H-H-P-P---------------------3-5-7-------3---3----3---5-7-9-------2---2----|
G:0-2-4-2-0--P-P--------------------------------0-----0-------------------0--|
D:----------4-2-0--P-P---0---------------------------------------------------|
A:----------------4-2-0--------------------2-2----------------------0-0------|
E:---------------------------------------------------------------------------|
                                                                       
            P   P   P    P                                        HARM.
e:---------5-3-3-2-2-0--2-0--0--P------H--------0------7\5----P---7----|
B:2-------------------------3--5-3----3-5--2---2-2-----8\7---9-5--7----|
G:--0----------------------------------------0----0---------------7----|
D:---------0---------------------P--------------------------------7----|
A:----------------------4------4---0--2----0-----------0-----4---------|
E:-----------------------------|---------------------------------------|
                                        [HOLD NOTE





Date: Fri, 23 May 1997 09:52:28 -0700
From: Kenjgewin Teg Educational Institute <kenjgewi@kanservu.ca>
Subject: TAB:Dee by Ozzy Osborne
                        Dee (Randy Rhodes)
             Tabbed by Lance Panamick & Peter Nelson
Here are a few modifications to the existing "Dee" we have just added a few details. :-)
                               harm                              
E-----------------------|------7--|--7-----------7-----|---------
B---12--------------12--|--10--7--|-----7-----7-----7--|---------
G---12----------12------|------7--|--------7-----------|---------
D-----------12----------|--9---7--|--9-----------------|---------
A---10--10--------------|---------|--------------------|---------
E-----------------------|--10-----|--------------------|---------
                                                                 
                                                                 
E---10--------10-----|---------------12\11/|--12--|--------------
B-------8---------8--|--------10-----------|------|--------------
G----------7---------|------------9--------|------|--------------
D---9----------------|--9/11---------------|------|--------------
A--------------------|---------------------|------|--------------
E--------------------|---------------------|------|--------------
                                                                 
                                                                 
E---------------------|------|--3-----3--|--2--------|-----------
B---12------------12--|--10--|-----2-----|-----5--3--|-----------
G---12--------12------|------|-----------|-----------|-----------
D-------9h12----------|------|--2--------|--0--------|-----------
A---10----------------|--9---|-----------|-----4--2--|-----------
E---------------------|------|-----------|-----------|-----------
                                                                 
                                                                 
E------------|------------|-----------------|--0-----5h7p5--|----
B---5-----5--|--5p3p2--3--|--3--------3-----|--------7------|----
G------4-----|------------|--------2-----2--|-----2---------|----
D------------|------------|-----0-----------|---------------|----
A------------|--0---------|-----------------|---------------|----
E---3--------|------------|--2--------------|---------------|----
                                                                 
                                                                 
E---2--------2-----|--------0--2--|--3-----------------3p2--|----
B---------0-----0--|--------------|--------------0----------|----
G------2-----------|--------------|-----0-----0-----0-------|----
D---1--------------|--------------|--------2----------------|----
A------------------|--2-----------|-------------------------|----
E------------------|--------3--2--|--0----------------------|----
                                                                 
                           Harm.                                 
E---2p0-----0-----------|--12-----------------------|------------
B--------3-----2-----3--|--12-----------------------|------------
G-----------------0-----|--12--4p2p0----------------|------------
D-----------------------|-------------4p2p0---------|------------
A--------------0--------|--------------------4p2p0--|------------
E---4-------------------|---------------------------|------------
                                                                 
                                                                 
E------2--3--5h7p5--|--------------0--2--|--3--5--7h9p7--|-------
B------3--5--7------|--3--------3-----3--|--5--7--8------|-------
G-------------------|-----0--------------|---------------|-------
D---0---------------|--------------------|---------------|-------
A-------------------|--2-----------------|---------------|-------
E-------------------|--------------------|---------------|-------
                                                                 
                                                                 
E------------|--5p3--3\2p0--|--2p0------------|------------------
B---2-----3--|--------------|-------3h5--3p2--|------------------
G------0-----|--------------|-----------------|------------------
D------------|--0-----------|-----------------|------------------
A---0--------|--------------|--4--------------|------------------
E------------|--------------|-----------------|------------------
                                                                 
                                                                 
E------------------|--------------|----------------|-------------
B---3h5--2p0--3h5--|-----2-----3--|--3-------------|-------------
G------------------|--------0-----|-----2----------|-------------
D------------------|--------------|--------0-------|-------------
A---2----0---------|-----0--------|-----------7p5--|-------------
E------------------|--------------|--2-------------|-------------
                                                                 
                  Harm.                                          
E---7p5--5--3--|--7-----||---------------------------------------
B---8-7--7--5--|--7-----||---------------------------------------
G--------------|--7-----||---------------------------------------
D--------------|--7-----||---------------------------------------
A--------4-----|--------||---------------------------------------
E---0----------|--------||---------------------------------------
                                                                 


=================================================================
==                    TABLATURE EXPLANATION                    ==
=================================================================
----------                ----------                ----t---
----5h8--- Hammeron       ----(8)--- Ghost          ----6--- Tap
----------                ---------- Note           --------
----5p8--- Pulloff        ----------                --------
----------                ----------                -----p--
----5/8--- Slide Up       -----x---- Dead           -----7-- Pop
----------                ---------- Note           --s-----
----5\8--- Slide Down     ----------                --5----- Slap 
----------                ||------|| Repeat         --------
----5~~~-- Vibrato        ||*----*||                ---5^--- Bend
----------                ||*----*||                --------
----------                ||------||                --------
----------                ----------                --------
-4:------- Time           ----------                --------
-4:------- Signature      ----------                --------
----------                ----------                --------