Make your own free website on Tripod.com
from - Michael James <mjames@agora.rdrop.com>
Flying High Again
Ozzy - Diary Of A Madman
|--------------|------------------|----------x--|------------------|
|--------------|----------3---3---|----------3--|------------------|
|-0h2----2-2---|-----2----2---0---|----------2--|--1-1--h5-5p0-----|
|-0h2-x--2-2---|-----2----0---0---|----------0--|--0-0--h5-5p0-----|
|-0h0-0--0-0---|---x-0----0-------|----2--3-----|--x-x-------------|
|--------------|---x----------3---|-------------|------------------|
|--------------|----------------|------------x--|------------------|
|--------------|-------------3--|----------3-x--|-1p0-1p0----------|
|-2--------2px-|----2--------0--|----------2-x--|--------2p0-------|
|-2--------2px-|----2--------0--|----------0-x--|-----------2p0----|repeat for different
|-0--------0---|----0-----------|----2--3-------|--------------3^--|variations
|--------3-----|-------0--2--3--|---------------|------------------|
"mamas gonna worry..."
|-----------------|-----------------|-------------|-----------------|
|-----------------|-----------------|--8----10^---|-----------------|
|-2-------2-------|-x-------2---2---|--7-----7----|-5---------------|
|-2-------2-x-x-x-|-x-x-x-x-2---2---|--5----(7)---|-5---5-----------|
|-0---0-0-0-0-0-0-|-0-0-0-0-0-0-0-0-|-------------|-------7-6-5-3h5-|
|-----------------|-----------------|-------------|-----------------|
"If you could see inside of me..."
|-------------|---------------------|----------------0--0-|--------|
|-------------|---------------------|-3-----3-3-----------|-3-3----|
|---2-----4-6-|-(6)~~~-4-2-----4--x-|-2-----2-2-----------|-2-2----|
|---4-----6-7-|-(7)----6-4-----6--x-|-0-----------0-------|-0-0----|
|-0-----------|---------------------|---------------------|--------|
|-------------|---------------------|---------------------|--------|
"You'd see youd see what i had seen..."
|-0-4-----|-5~~~~~~--x-x-7--9--|-(9)~~-7--5-----7--5-|---------------------------
|-0-5-----|-7--------x-x-9-10--|(10)---9--7-----9--7-|---------------------------
|---------|--------------------|---------------------|---harmonics---------------
|---------|--------------------|---------------------|---------------------------
|---------|--------------------|---------------------|-7-7-7-7-7-7-7-7-7-7-7-7-7-
|---------|--------------------|---------------------|---------------------------
SOLO:
|14---------14--------14--------14---------|17-16-14------------------------------------
|--17p14------17p14-----17p14-----17p14----|--------17-15p14----------------------------
|-------16^--------16^-------16^-------16^-|----------------17-16p14--------------------
|------------------------------------------|------------------------16-14---------------
|------------------------------------------|-----------------------------16-15p14-15h16-
|------------------------------------------|--------------------------------------------
|----------------------------------------14h15-|
|----------------------------------15h17-------|
|-----------------------14p12-14/16------------|
|---------14-16-14-16h17-----------------------|
|-17p16-17-------------------------------------|
|----------------------------------------------|
|-14~~~~~~~~-h15p14----------------------|
|------------------17~~~~~~(x)\----------|
|------------------------------\---------|
|-------------------------------\--------|
|--------------------------------\-------|
|---------------------------------\12-12-|
|---------------------------------------|-------------------------x------------|
|---------------------------------------|151415141514145141514----x-----10h14-x|
|------------------------14h16p14h16p14-|---------------------16~~-------------|
|---------------14--16-14---------------|--------------------------------------|
|------12--16-14--16--------------------|--------------------------------------|
|-14-12--14-----------------------------|--------------------------------------|