Make your own free website on Tripod.com
			I Don't Know
			Ozzy Osbourne
			Blizzard of Ozz
			Transcribed by Steve Cormier
  Intro   main riff
|------|-----------------------------------------------------|
|------|-----------------------------------------------------|
|------|-2----------------4----------------5-----------------|
|------|-2----------------4----------------5-----------------|
|------|-0-0-000-000-0000-0-0-000-000-0000-0-0-000-000-0000--|
|--17\-|-----------------------------------------------------|
 
Fill 1            Fill 2                                fill 3  
|-----------------|-----------------------------------|---------------|
|-----------------|-1p0-1p0-1p0-----------------------|---------------|
|-----------------|-------------2p0-2p0---------------|---12*---------|
|---------7-------|----------------------2p0-2p0------|---12*---------|
|------5--5-------|-------------------------------3p0-|---------------|
|-17\--3-----3p0--|-----------------------------------|---------------|
fill 4          fill 5       Riff II A                Riff II          
|----------|-----------|------------------------|----------------------|
|----------|-----------|---------------6--------|-----------6-6-6------|
|----------|-----------|---------5---5---5------|------5-5-5-----5-5-5-|
|---7------|---------7-|-5--5--3---3-------3----|-3-3-3----------------|
|-5-5------|-----5--5--|-5--5-------------------|----------------------|
|-3----3p0-|-17\--3----|-3--3----------------3b-|----------------------|
 Riff III         Fill 6           Riff IV            Fill 7
|----------------|---------------|-------------------|----------|
|----------------|---------------|-------------------|----------|
|----------------|--5T0-4T0--2T0-|------7b---0-------|----------|
|-10--9--7--5----|---------------|------7b---0--5----|----------|
|--8--7--5--3--5-|---------------|-0-0-----0----3--5-|-7--5-4-3-|
|--------------3-|---------------|-----------------3-|-5--3-2-1-|
Riff V (CLEAN TONE)                            Fill 8   
|-2---------2--------------2-------------3---|-1-1--3--3--3\5-|
|-3--3h5-3----3----------3---3---------3---3-|-1-1--1--1--1\3-| 
|-2-------------2------0------------0--------|-2-2--2--2--2\4-|
|--------------------------------------------|-3-3--3--3--3\5-|
|-------------------3------------2-----------|----------------|
|--------------------------------------------|----------------|
Fill 9                     Riff VI       Fill 10      Fill 11   Fill 12
|-1h3p1------------------|--------------|------------|---------|-------|
|-------1h3p1-1h3p1------|--------------|------------|---------|-------|
|--------------------2---|------7b---5--|------------|------2--|-------|
|----------------------4-|------7b---5--|------------|---------|-------|
|------------------------|-0-0-----0----|--5-5-6-7-0-|-2/4-----|-------|
|------------------------|--------------|------------|---------|-17\---|
SOLO
|---------15---------------15--------------------------------------17b-|
|-18b-18b----18p15------15----18p15----15------------------------------|
|------------------17b--------------18----18p15-17p15----15-17b-15-----|
|-----------------------------------------------------17---------------|
|----------------------------------------------------------------------|
|----------------------------------------------------------------------|
                                             Tremelo pick
|-17T15-17\13----------------------------|-----------------------------|
|-------------13bT16T/P------------------|-------------------------18-20
|-----------------------12\--3T0---------|----------------15-17-19-----|
|----------------------------------------|----------15-17--------------|
|--------------------------------3/15----|-13-15-17--------------------|
|-------------------------------------15-|-----------------------------|
|---18--21p20p18-----------18------------------------------------------|
|-----------------20p18h20----20p18-20b-20b----------------------------|
|---------------------------------------------19b--19b--19b------------|
|----------------------------------------------------------------------|
|----------------------------------------------------------------------|
|----------------------------------------------------------------------|
|----------------------------------------------------------------------|
|------11p10-----11p10-----10p9----10p9----9p8----8p7---7p6---6p5------|
|-12-12-----12p10-----12p10----11p9----11p9---10p8---9p7---8p6----7p5--|
|----------------------------------------------------------------------|
|----------------------------------------------------------------------|
|----------------------------------------------------------------------|
        
                                                               END SOLO 
|------3-----------------------------15--------------------------------|
|----3---6p3---3------------------15----18p15----15-17b----------------|
|-5b---------6---6p5p3---5p3-5/17-------------17-----------------------|
|----------------------5-----------------------------------------------|
|----------------------------------------------------------------------|
|----------------------------------------------------------------------|
Fill 13                         Fill 14
|----------------------------|----------------3------------------------|
|------------1p0-1p0---------|---------------3---8p5-6p5---5-----------|
|-----7b---5--------2p0------|-----7b---0-5b-------------8---8p7p5-----|
|-----7b---5-----------2p0---|-----7b---0------------------------------|
|-0-0----0----------------3p0|-0-0----0--------------------------------|
|----------------------------|-----------------------------------------|

Fill 15                         Fill 16
|-------------------15-----|-------------------------------------------|
|----------------------17b-|-------------------------------------------|
|-----7b----5--/18---------|-----7b----7-7-7---------------------------|
|-----7b----5--------------|-----7b----7-7-7---------------------------|
|-0-0----0-----------------|-0-0-----0---------------------------------|
|--------------------------|------------------------17\----17\---------|
Fill 17
|20-20p17-20p17--17----------------------------------------------------|
|--------------20--20p17-20p17---20------------------------------------|
|-----------------------------19---19p17-19p17---17--------------------|
|----------------------------------------------19---19p17-----17-------|
|--------------------------------------------------------19----19p17---|
|--------------------------------------------------------------------17\