Make your own free website on Tripod.com
from - Michael James <mjames@agora.rdrop.com>
You Cant Kill Ronk And Roll
Ozzy Osbourne - Diary Of A Madman
|-------0---------------------0----------0---------------0-----0---
|-------0-------0---------------0--------0---0-------------0-------
|-----8---8---8-------8---8------------6---6---6-------6-----6-----
|---9-------9-----------9---9------------------------7-------------
|-9---------------9-9-------------7----------------7---------------
|-7---------------7---------------5----------------5---------------
Fills:
|-9------7h9p7-|-9------10p9-|-9------10/12-|-9-------7-h9p7p0-----
|--------------|-------------|--------12/14-|----------------------
|--------------|-------------|--------------|----------------------
|--------------|-------------|--------------|----------------------
|--------------|-------------|--------------|----------------------
|--------------|-------------|--------------|----------------------
|-9------0h9p0--10p9-|-9-------0-9h10-9-|-9---5---7--9--10---------
|--------------------|------------------|--------------------------
|--------------------|------------------|--------------------------
|--------------------|------------------|--------------------------
|--------------------|------------------|--------------------------
|--------------------|------------------|--------------------------
And they Dont' (G5) really know (A5) even what theyre (B5) talking about
Go w/ above
|-10-9----12--------10p9-------------------2---------7--9---10-----
|------12-14-----------------------2---------2---------------------
|--------------------------------4---4---4-----4-------------------
|------------------------------4-------4---------4-----------------
|----------------------------2-------------------------------------
|------------------------------------------------------------------
|-10-9----12-------12--|-------------------------------------------
|------12-14----14-----|-------------------------------------------
|----------------------|-4--4--4--4--4--4--4--4--4-----------------
|----------------------|-4--4--4--4--4--4--4--4--4-PS--------------
|----------------------|-2--2--2--2--2--2--2--2--2x\\--------------
|----------------------|-------------------------------------------
|--------------------------|---------------------------------------
|--------------------------|--------------------------------0------
|-------------4-------7--9-|---------------------4----------2----2-
|-------------4-------7--9-|---------------------4----------2----2-
|-----5-4-2-------(2)-5--7-|-------------5---2--------------0----0-
|-0-2----------------------|----0----2-0---2-----------4~~~--------
|--------------------------|---------------------------------------
|--------------------------|--------------------------------0------
|-------------4-------7--9-|---------------------4----------2----2-
|-------------4-------7--9-|---------------------4----------2----2-
|-----5-4-2-------(2)-5--7-|-------------5---2--------------0----0-
|-0-2----------------------|----0----2-0---2--------x--4~~~--------
|-------------0----------|----------------0---------|--------------
|------------------------|--------------------------|--------------
|-------------7-----7--2-|--2-------------7----7--2-|--------------
|-----2-------7-----7--2-|--2-----2-------7----7--2-|--------------
|-0-4---4-5-5-5-----5--0-|--0-0-4---4-5-5-5----5--0-|--------------
|-x-x-x-x-x-x------------|----x-x-x-x-x-x-----------|--------------
|----------------7---2---------------------3-----------------------
|------------3---7---3-----2--2------------3------3----------------
|------------4---4---2-----2--2------------0------2----------------
|-2----------4---4---4-----2--2------------0------0------4---------
|---5-4-5-2----------0-----0--0--------------------------4---------
|----------------------------------17\-----3------2------2---------
|------------|------------|--------------|-------------------------
|------------|------------|--------------|-------------------------
|-----2-1----|-----1-2--1-|-----2-1-2----|------7--9---------------
|---2-----4--|-2-4--------|-4-2----------|-PS---7--9---------------
|-4----------|------------|--------------|-x\---5--7---------------
|------------|------------|--------------|-------------------------
Solo:
|--------------------------------------------------------------------------
|-15^---15^~~~-------15^-17p15-17p15-17p15-17-15p14---14-------------------
|--------------------------------------------------16----16p14--14---------
|-------------------------------------------------------------16--16p14----
|--------------------------------------------------------------------------
|--------------------------------------------------------------------------
|---------------------------------------------------------------/--
|----------------15^-17----------------------------------------/---
|-----------------------16^^------2--2^-2^-2^-2^-2^------/13--/----
|----------14-16----------------------------------------/----------
|-16-14h16-------------------------------------------0-/-----------
|------------------------------------------------------------------
|-------------------------------16171617-16/17191719-17/1921192119-
|-19^----19^-----19^~~~~~~~~~--------------------------------------
|------------------------------------------------------------------
|------------------------------------------------------------------
|------------------------------------------------------------------
|------------------------------------------------------------------
|--141714--14----------------------------14-----17-19-17-19^-------
|-14-----17--17p14--14-----------------14--17/19-------------------
|10---------------16--16p14--------14------------------------------
|--------------------------16-14-16--------------------------------
|------------------------------------------------------------------
|------------------------------------------------------------------
|-(19)^~~~~~~~~~~~~~--||-------0--------------0--------0--------------0-
|---------------------||----------0--------0--------------0--------0----
|---------------------||----8-----------6-----------8-----------6-------
|---------------------||-9-----------7-----------9-----------7----------
|---------------------||-9-----------7-----------9-----------7----------
|---------------------||-7-----------5-----------7-----------5----------
Outro Solo:
|------------------------------------------------------------------
|-------------------------------------------------------/\--/~~~~~-
|---wah------------5\2^------------2h4p2h4p2h4p2h4p2---/--\/-------
|-5-------^-------------------------------------------2------------
|------------------------------------------------------------------
|------------------------------------------------------------------
|------------------------------------------------------------------
|------------------------------------------------------------------
|-/46464646/67676767/79797979-9^-9-^9-11-9h11p9h11--%----%--%-%--%-
|------------------------------------------------------------------
|------------------------------------------------------------------
|------------------------------------------------------------------
|------------------------------------------------------------------
|-------------wah---------------wah---~~~~~~~----------------------
|-9h11p9-16^------------16^---------------------16^-----16^-16-16^-
|------------------------------------------------------------------
|------------------------------------------------------------------
|------------------------------------------------------------------
|------------------------------------------------------------------
|------------------------------------------------------------------
|--16---16^--16^---------------------------------------------------
|------------------------------------------------------------------
|------------------------------------------------------------------
|------------------------------------------------------------------