Make your own free website on Tripod.com
Over The Mountain
Ozzy - Diary Of A Madman
|----------------------------------------------(6------5)----------
|-----------x-x-x---x-x-x---x-x-x---x-x-x--------------------------
|------------------------------------------------------------------
|-(8)--6--5-5-5-5-5-5-5-5-5-5-5-5-5-5-5-5-12\---8------7-----------
|--6---6--5-5-5-5-5-5-5-5-5-5-5-5-5-5-5-5--------------------------
|------4--3-3-3-3-3-3-3-3-3-3-3-3-3-3-3-3--------------------------
|-----------------------||-----------------------------------------
|-----------------------||-----------------6------------6----------
|-------------7-h-8--5--||---x-x-x-x-x-x-x-3------x-x-x-3--5-------
|----------5------------||---------------------------------5-------
|-------5---------------||-5-5-5-5-5-5-5-5------5-5-5-5----3-------
|-3--6------------------||-3-3-3-3-3-3-3-3------3-3-3-3------------
|--------------------------------------------------||--------------
|--------------------------------------------------||--------------
|--8----------10--------8---------10---------------||--------------
|--8----------10--------8---------10---------------||-15\-(8)-6----
|--6-----------8--------6----------8---------------||------6--6----
|-------------------------------------------6---5--||---------4----
|------------------------------
|------------------------------
|---x-x-x----ps----------3-----
|-5-5-5-5---12\--3-------3-----
|-5-5-5-5--------3-------1-----
|-3-3-3-3--------1-------------
|------------------------------------------------------------------
|----4--3--3--------4-3---4-------4---3---4--------4-3---4-------4-
|-----------------------3------------------------------3-----------
|-5-----------3---------------5--------------3--------------5------
|-3-----------1---------------3--------------1--------------3------
|------------------------------------------------------------------
|----------------------------------
|------------------3---4-------4---
|--------------------------5-------
|-3---5---6------------------------
|-3---5---6------------------------
|-1---3---4------------------------
Next Fig:
|------------------------------------------------------------------
|--------6p5h6------------------------------6p5h6------------------
|--------7p5h7-----------12p10h12-----------7p5h7------------------
|-0--x-x---------7-x-x-x-12p10h12--7-x-x-x---------5---------------
|----------------5-x-x-x-----------5-x-x-x---------5---------------
|--------------------------------------------------3---------------
|-----3-6-4p3-3-------------------------------------
|---4--------6-6p4-3--3-----------------------------
|-5-----------------5---5p3---3---------------------
|---------------------------6---6-5p3-5p3---3-------
|-----------------------------------------6---6--5--
|---------------------------------------------------
Solo:
|-----------------------------15------18^^---15-----15-------------
|-------------------------------18-15-----------18^-----18~~~~~----
|--------------------15-17^----------------------------------------
|---------------15-17----------------------------------------------
|-------13-15/17---------------------------------------------------
|-13-15------------------------------------------------------------
                        ||pull stirng with pick hand
|------------------------------------------------------------------
|-15h18p15-18p15h18p15^-18^p15-18^p15------------------------------
|--------------------------------------%-----%-----%----%----%-----
|------------------------------------------------------------------
|------------------------------------------------------------------
|------------------------------------------------------------------
|--------6-7-9-6-7---6---------------------------------------------
|------------------9---7-9-6-7---6-------------------------------4-
|-8-8--------------------------8---8-6-5-6-3h4p3---3---------------
|------------------------------------------------6---6-4---3~~~----
|--------------------------------------------------------6---------
|------------------------------------------------------------------
|------------------------------------------------------------------
|-7p6p4-----------------7p6p4--------------------------------------
|------6p5p3------6p5p3-------6p5p3-------6p3---(3)/13-12h13p12----
|-----------7p6p4-------------------7p6p4--------------------------
|------------------------------------------------------------------
|------------------------------------------------------------------
                         ||bend on some acsending patterns
|-9^----/\/\/\/\-----------------------------------------------------------
|-----fuck with vibrato----9p6\5-8p5\4-7p4\3-6p3\2-5p2\1-4p1p0-5p2p0-6p3p0-
|--------------------------------------------------------------------------
|--------------------------------------------------------------------------
|--------------------------------------------------------------------------
|--------------------------------------------------------------------------
Outro:
|-----10-13-11p10--10------------------------------------------------
|---11-----------13--13p11-10--10------------------------------------
|-12-------------------------12--12p10---10--------------------------
|-------------------------------------13---13-12p10-12p10--10--------
|--------------------------------------------------------13--13---12-
|--------------------------------------------------------------------
|------------------------------------------------|13-11-10------------------
|-------------------------10h11p10h11p10h11p10---|--------13-11-10----------
|-------------------10-12---------------------12-|----------------12-10-12^-
|----------10-12-13------------------------------|--------------------------
|-10-12-13---------------------------------------|--------------------------
|------------------------------------------------|--------------------------
|-----18^^-^p15--15-------------
|-15-----------18--18^~~~~~~~---
|-------------------------------
|-------------------------------
|-------------------------------
|-------------------------------